Mezclando escalas (por Sócrates)

advertisement
Mezclando Escalas
Por Sócrates <socrates@motley.com>
Tipo de clase
: Teórico
Nivel
: Intermedio
Conocimientos previos : Escalas Mayores/menores, modos, círculo de quintas
Esta clase, como su título lo dice, trata sobre la mezcla de distintas escalas. Esto significa
tener una escala definida, pero al momento de cambiarle unas pocas notas la transformamos en
otra escala, siempre manteniendo nuestra tónica. Esto es sumamente útil para la composición
musical, ya que sería bastante fácil hacer un tema completamente en Do Mayor, pero siempre es
posible agregar otros condimentos musicales que hagan que la escala cambie, es decir, cambiar de
Do Mayor a Do menor, por ejemplo. En resumen, la idea es mantener una escala como base, e ir
alternándola con otro tipo de escalas (“mezclar” escalas) mediante la Eliminación, Alteración o
Inserción de otras notas a la escala base.
La primera escala que veremos será en Mi, ya que es una escala bastante cómoda para
interpretar en guitarra. Pero no será cualquier escala de Mi, sino que será el tercer modo de Do
Mayor (Mi Frigio, Krud o Arábico). Recordemos la escala de Do Mayor y su modo Frigio en Mi
Do Mayor
Mi Frigio -----> Lo traspasamos a la 7a posición
|-------------------|------------------|-------------------------------|
|-------------------|--------------3-5-|-------------------------------|
|-----------2-4-5---|--------2-4-5-----|-----------------7-9-----------|
|-----2-3-5---------|--2-3-5-----------|----------7-9-10---------------|
|-3-5---------------|------------------|---7-8-10----------------------|
|-------------------|------------------|-------------------------------|
(Por comodidad hemos traspasado el modo a la 7a posición, trabajaremos durante toda esta lección
sobre esa posición).
Como pueden ver, es bastante cómodo trabajar en Mi Frigio, ya que es el modo de Do
Mayor, y esto implica que no hay alteraciones en la escala (bemoles o sostenidos). Las notas de Mi
Frigio son:
Mi-Fa-Sol-La-Si-Do-Re-Mi
Nótese que este tipo de escalas (Frigio) tiene un sonido oscuro, o algo misterioso, se
pueden improvisar cosas bastante buenas en esta escala, dependiendo siempre de la intención del
compositor.
Ahora, para cambiar de una escala a otra, es necesario que el cambio no sea demasiado
brusco, por ejemplo, si cambiamos desde Do Mayor a Do menor, el cambio es muy notorio, ya que
son muchas notas las que cambian en la escala, por lo tanto, un buen dato para ir cambiando a
otra escala es, modificar una o dos notas de nuestra escala principal, veámoslo con el primer
ejemplo.
Eliminando notas de la escala
Mezcla I (Iwato)
A nuestra querida escala de Mi Frigio, podemos modificarle notas, agregarle notas, o
también, quitarle algunas notas, pues eso es lo primero que haremos, quitémosle dos notas: Sol y
Do. Entonces tendremos algo como:
Mi-Fa-La-Si-Re-Mi
Sí, se transformó en una pentatónica, esta escala se llama Iwato, y en nuestra tablatura se
vería así:
Mi Frigio
------> Mi Iwato
|-------------------------|--------------------------------------------|
|-------------------------|--------------------------------------------|
|-------------------7-9---|---------7-9--------------------------------|
|----------7-9-(10)-------|-----7-9------------------------------------|
|-7-8-(10)----------------|-7-8----------------------------------------|
|-------------------------|--------------------------------------------|
Las notas entre () son las notas que voy a quitarle al modo Frigio.
Como ven, la escala Frigio no cambió mucho, sólo en dos notas y ya es otra escala (Iwato),
pero atención, continuamos en una escala de Mi.
Mezcla II (Pentatónica menor)
Es muy importante que cuando le quitemos algunas notas a nuestra escala, sepamos bien
cuales son las notas que vamos a sacar, por ejemplo, si quito las siguiente notas: Fa y Do, entonces
denuevo tengo una pentatónica pero ahora es una pentatónica menor, y el sonido característico del
modo Frigio se pierde, porque ya no tiene los semitonos (Mi-Fa y Si-Do) que le dan ese sonido
oscuro. Veámoslo en la tablatura:
Mi Frigio
-----> Mi Pentatónica menor
|------------------------|---------------------------------------------|
|------------------------|---------------------------------------------|
|-------------------7-9--|--------------7--9---------------------------|
|----------7-9-(10)------|--------7--9---------------------------------|
|-7-(8)-10---------------|--7--10--------------------------------------|
|------------------------|---------------------------------------------|
Esto NO significa que esté mal, solamente que el cambio es demasiado brusco... pero esto
es solamente una guía, y desde luego sería interesante incursionar en algunos sonidos distintos,
experimentando con este tipo de cambios.
Mezcla III (Escala Japonesa)
Sigamos entonces quitándole algunas notas a nuestro modo Frigio. Quitaremos dos notas
denuevo, para transformarla en otra pentatónica: Sol y Re. Entonces, nuestra escala pentatónica
nos queda con las siguientes notas:
Mi-Fa-La-Si-Do-Mi
Mi Frigio
------> Mi Japonesa
|-------------------------|--------------------------------------------|
|-------------------------|--------------------------------------------|
|-----------------(7)-9---|-----------------9--------------------------|
|----------7-9-10---------|-------7--9--10-----------------------------|
|-7-8-(10)----------------|-7--8---------------------------------------|
|-------------------------|--------------------------------------------|
Esa es la escala Japonesa, fíjate que esta escala sigue teniendo ese sonido característico
del modo Frigio.
Mezcla IV (Pelog o Balinese)
Y ahora quitaremos dos notas más a nuestro modo Frigio: La y Re. Y así la hemos
transformado denuevo en una escala pentatónica llamada Pelog.
Sus notas son las siguientes:
Mi-Fa-Sol-Si-Do-Mi
Mi Frigio
------> Mi Pelog
|----------------------------|-----------------------------------------|
|----------------------------|-----------------------------------------|
|------------------(7)-9-----|------------------9----------------------|
|---------(7)-9-10-----------|-----------9--10-------------------------|
|--7-8-10--------------------|-7--8--10--------------------------------|
|----------------------------|-----------------------------------------|
Y así, nuestra escala en modo Mi Frigio, ha sufrido una serie de transformaciones. Recalco
la importancia de que siga sonando “similar” al modo Frigio, así la escala Pelog, sigue manteniendo
el sonido del modo Frigio.
Alterando notas de la escala
Mezcla V
Ahora vamos a hacer algo distinto, vamos a modificar notas. Recordemos que en las
mezclas anteriores tan sólo le quitamos notas al modo Frigio. Para esto, vamos a modificar una sola
nota, la nota Si por un Sib.
¿Qué escala es esta? Si hemos estudiado algo de música (estudiar el círculo de quintas)
sabremos que ahora tenemos un (1) bemol, que es en la nota Si, y la escala que tiene este
accidental es Fa Mayor (Fa-Sol-La-Sib-Do-Re-Mi), entonces, si nuestra escala sigue siendo Mi “algo”,
entonces es un modo de Fa Mayor. Y sería el séptimo modo: Mi Locrio. Recalco que Mi, ya NO ES
un modo de Do Mayor, ya que tiene un accidental, que es un bemol en la nota Si. Ahora es un
modo de Fa Mayor (Mi Locrio).
Así, las notas de Mi Locrio son:
Mi-Fa-Sol-La-Sib-Do-Re-Mi
Nuestra tablatura quedaría así:
Mi Frigio
-----> Mi Locrio
-----> Escala mezclada
|-----------------------|---------------------|------------------------|
|-----------------------|---------------------|------------------------|
|-----------------7-9---|-----------------7-9-|-------------------7-9--|
|--------7-(9)-10-------|--------7-(8)-10-----|--------7-(8-9)-10------|
|-7-8-10----------------|-7-8-10--------------|-7-8-10-----------------|
|-----------------------|---------------------|------------------------|
Modificando tan sólo una nota, hemos transformado nuestro modo Frigio en Locrio, pero
seguimos en la misma tónica: Mi. En la escala mezclada están incluidas las dos notas: del modo
Frigio y el Locrio, no quiere decir que toquemos la escala tal cual como muestra la mezcla, sino que
podemos ir alternando entre un modo y otro, con sólo cambiar una nota.
Mezcla VI (Javanese)
Hay que tener sumo cuidado cuando alteramos notas de la escala, ya que al alterar dos o
más notas, el sonido resultante sería muy distinto al de nuestra escala base (Mi Frigio)
La siguiente alteración es muy particular, sólo alteraremos una nota (Do), cambiándola por
un Do#, obteniendo una nueva escala con una estructura completamente distinta, llamada
Javanese.
Sus notas son:
Mi-Fa-Sol-La-Si-Do#-Re-Mi
Y en la tablatura veremos esto:
Mi Frigio
-----> Mi Javanese
-----> Escala mezclada
|-----------------------|-----------------------|----------------------|
|-----------------------|-----------------------|----------------------|
|-----------------7-9---|------------------7-9--|-------------------7-9|
|--------7-9-(10)-------|---------7-9-(11)------|--------7-9-(10-11)---|
|-7-8-10----------------|--7-8-10---------------|-7-8-10---------------|
|-----------------------|-----------------------|----------------------|
Nótese que a pesar de haber cambiado tan sólo una nota, el sonido Frigio cambió bastante,
ahora tiene un sonido un poco más “alegre” al alterar de Do a Do#. Estas alteraciones a nuestro
modo Frigio, dependen de la intención que el compositor quiera dar a su obra; si quiere hacer que
suene más triste, o más alegre, más enigmático, etc. Inténtalo!!!! Sólo tienes que experimentar con
distintas notas, pero sin olvidar nuestra escala base (Mi Frigio)
Mezcla VII (Locrio 6)
Ya vimos la alteración para Mi en modo Locrio, ahora veremos el Locrio 6, se llama Locrio 6
porque la sexta nota es natural y no bemol como en el Locrio (estudiar alteraciones de la escala
Mayor), pero eso es tema para otra clase y no viene al caso señalarlo.
Ahora alteraremos dos notas que serán: Si y Do, las cambiaremos por Sib y Do#,
respectivamente. Así nuestra nueva escala en modo Locrio 6 tendrá las siguientes notas:
Mi-Fa-Sol-La-Sib-Do#-Re-Mi
Y en la tablatura la escala se transforma de esta forma:
Mi Frigio
------> Mi Locrio 6 -----..
|-----------------------|-----------------------|
|-----------------------|-----------------------|
|-------------------7-9-|-------------------7-9-|
|--------7-(9)-(10)-----|--------7-(8)-(11)-----|
|-7-8-10----------------|-7-8-10----------------|
|-----------------------|-----------------------|
.-> Escala mezclada
|---------------------------|
|---------------------------|
|----------------------7-9--|
|--------7-(8-9-10-11)------|
|-7-8-10--------------------|
|---------------------------|
Así, la escala cambia bastante, pero sigue manteniendo un sonido enigmático. Fíjate que
esta escala (Mi Locrio 6), es la combinación de la escala Locrio con la escala Javanese. Sí, así es,
fíjate en las alteraciones en Locrio: Sib, y las alteraciones en Javanese: Do#, si sumamos esas dos
combinaciones: Sib-Do# obtenemos nuestra nueva escala Locrio 6. Se pueden hacer una infinidad
de combinaciones con las notas, sólo hay que poner atención en cual se escucha mejor,
dependiendo del uso que quieras darle.
Mezcla VIII (Escala Española)
En este caso, vamos a alterar tan sólo una nota que será: Sol, cambiándola por Sol#
obtenemos la escala Española (Frigio Dominante, Frigio Mayor, Balkan, Jewish, Ahavoh Rabboh),
muchos nombres eh!! Pero es comúnmente conocida como Española.
Nuestras nuevas notas serán:
Mi-Fa-Sol#-La-Si-Do-Re-Mi
Mi Frigio
-----> Mi Española -----> Escala mezclada
|---------------------|-------------------|----------------------------|
|---------------------|-------------------|----------------------------|
|-----------------7-9-|---------------7-9-|------------------7-9-------|
|----------7-9-10-----|--------7-9-10-----|-----------7-9-10-----------|
|-7-8-(10)------------|-7-8-11------------|-7-8-10-11------------------|
|---------------------|-------------------|----------------------------|
Denuevo hemos transformado nuestro modo Frigio a la escala Española, con sólo modificar
una nota!!!
En resumen
Veamos en forma global lo que aprendimos en esta lección:




Elegir una escala como base, la que nosotros queramos, en esta lección se utilizó Mi Frigio.
De nuestra escala base podemos eliminar, alterar o insertar otras notas.
Al hacer esto, nuestra escala cambiará de apellido, pero no de nombre (ej.: Mi Locrio).
Y finalmente podemos improvisar alternando las notas entre una y otra escala, produciendo
mezclas.
Quiero recalcar que esta lección de teoría es tan sólo una guía para los guitarristas, en
ningún caso pretende establecer “reglas”, ya que la música es un arte, es importante que el artista
se salga también de esas “reglas”, pero para que el artista pueda romper con aquellas “reglas”, es
necesario conocerlas primero... ¿no crees tú?
Descargar